ISO-10303-21;
HEADER;
FILE_DESCRIPTION (( 'STEP AP203' ),
    '1' );
FILE_NAME ('End Cap SDR17_001 115 0140 0225.step',
    '2019-12-16T11:43:31',
    ( '' ),
    ( '' ),
    'SwSTEP 2.0',
    'SolidWorks 2019',
    '' );
FILE_SCHEMA (( 'CONFIG_CONTROL_DESIGN' ));
ENDSEC;

DATA;
#1 = EDGE_CURVE ( 'NONE', #8, #84, #277, .T. ) ;
#2 = DIRECTION ( 'NONE',  ( -0.0000000000000000000, -1.000000000000000000, -0.0000000000000000000 ) ) ;
#3 = CARTESIAN_POINT ( 'NONE',  ( 0.0000000000000000000, -305.9940363916821866, 0.0000000000000000000 ) ) ;
#4 = EDGE_CURVE ( 'NONE', #227, #8, #31, .T. ) ;
#5 = AXIS2_PLACEMENT_3D ( 'NONE', #290, #78, #184 ) ;
#6 =( LENGTH_UNIT ( ) NAMED_UNIT ( * ) SI_UNIT ( .MILLI., .METRE. ) );
#7 = ORIENTED_EDGE ( 'NONE', *, *, #212, .F. ) ;
#8 = VERTEX_POINT ( 'NONE', #230 ) ;
#9 = APPROVAL_STATUS ( 'not_yet_approved' ) ;
#10 = ORIENTED_EDGE ( 'NONE', *, *, #64, .T. ) ;
#11 =( GEOMETRIC_REPRESENTATION_CONTEXT ( 3 ) GLOBAL_UNCERTAINTY_ASSIGNED_CONTEXT ( ( #194 ) ) GLOBAL_UNIT_ASSIGNED_CONTEXT ( ( #6, #288, #268 ) ) REPRESENTATION_CONTEXT ( 'NONE', 'WORKASPACE' ) );
#12 = LOCAL_TIME ( 14, 43, 31.00000000000000000, #160 ) ;
#13 = APPROVAL_STATUS ( 'not_yet_approved' ) ;
#14 = ORIENTED_EDGE ( 'NONE', *, *, #261, .T. ) ;
#15 = COORDINATED_UNIVERSAL_TIME_OFFSET ( 3, 0, .AHEAD. ) ;
#16 = PRODUCT ( 'End Cap SDR17_001 115 0140 0225', 'End Cap SDR17_001 115 0140 0225', '', ( #271 ) ) ;
#17 = CARTESIAN_POINT ( 'NONE',  ( 0.0000000000000000000, -305.9940363916821866, -3.449619364455123183 ) ) ;
#18 = DIRECTION ( 'NONE',  ( 0.0000000000000000000, 0.0000000000000000000, -1.000000000000000000 ) ) ;
#19 = CC_DESIGN_PERSON_AND_ORGANIZATION_ASSIGNMENT ( #274, #59, ( #129 ) ) ;
#20 = AXIS2_PLACEMENT_3D ( 'NONE', #259, #45, #145 ) ;
#21 = DIRECTION ( 'NONE',  ( -0.0000000000000000000, -1.000000000000000000, -0.0000000000000000000 ) ) ;
#22 = CARTESIAN_POINT ( 'NONE',  ( 0.0000000000000000000, 120.0000000000000000, 0.0000000000000000000 ) ) ;
#23 = TOROIDAL_SURFACE ( 'NONE', #149, 3.449619364455123183, 436.6004058140606503 ) ;
#24 = DIRECTION ( 'NONE',  ( -0.0000000000000000000, -1.000000000000000000, -0.0000000000000000000 ) ) ;
#25 = CYLINDRICAL_SURFACE ( 'NONE', #94, 112.4999999999999858 ) ;
#26 = AXIS2_PLACEMENT_3D ( 'NONE', #245, #29, #127 ) ;
#27 = CARTESIAN_POINT ( 'NONE',  ( 1.213624977955027117E-14, 0.0000000000000000000, 99.10000000000000853 ) ) ;
#28 = FACE_OUTER_BOUND ( 'NONE', #224, .T. ) ;
#29 = DIRECTION ( 'NONE',  ( -0.0000000000000000000, -1.000000000000000000, -0.0000000000000000000 ) ) ;
#30 = ORIENTED_EDGE ( 'NONE', *, *, #248, .T. ) ;
#31 = CIRCLE ( 'NONE', #177, 112.4999999999999716 ) ;
#32 = APPLICATION_PROTOCOL_DEFINITION ( 'international standard', 'config_control_design', 1994, #238 ) ;
#33 = ORIENTED_EDGE ( 'NONE', *, *, #189, .T. ) ;
#34 = PERSON_AND_ORGANIZATION_ROLE ( 'design_owner' ) ;
#35 = ORIENTED_EDGE ( 'NONE', *, *, #4, .T. ) ;
#36 = DATE_AND_TIME ( #252, #12 ) ;
#37 = EDGE_LOOP ( 'NONE', ( #251, #35, #161, #183 ) ) ;
#38 = TOROIDAL_SURFACE ( 'NONE', #26, 3.449619364455123183, 450.0000000000000568 ) ;
#39 = CC_DESIGN_APPROVAL ( #110, ( #264 ) ) ;
#40 = SECURITY_CLASSIFICATION_LEVEL ( 'unclassified' ) ;
#41 = DIRECTION ( 'NONE',  ( -0.0000000000000000000, -1.000000000000000000, -0.0000000000000000000 ) ) ;
#42 = EDGE_CURVE ( 'NONE', #58, #8, #176, .T. ) ;
#43 = CYLINDRICAL_SURFACE ( 'NONE', #163, 99.09999999999998010 ) ;
#44 = VECTOR ( 'NONE', #76, 1000.000000000000000 ) ;
#45 = DIRECTION ( 'NONE',  ( -0.0000000000000000000, -1.000000000000000000, -0.0000000000000000000 ) ) ;
#46 = AXIS2_PLACEMENT_3D ( 'NONE', #3, #103, #203 ) ;
#47 = CC_DESIGN_PERSON_AND_ORGANIZATION_ASSIGNMENT ( #139, #228, ( #264 ) ) ;
#48 = CARTESIAN_POINT ( 'NONE',  ( 0.0000000000000000000, 0.0000000000000000000, -99.09999999999998010 ) ) ;
#49 = CARTESIAN_POINT ( 'NONE',  ( 0.0000000000000000000, -305.9940363916821866, -3.449619364455123183 ) ) ;
#50 = PRODUCT_RELATED_PRODUCT_CATEGORY ( 'detail', '', ( #16 ) ) ;
#51 = TOROIDAL_SURFACE ( 'NONE', #46, 3.449619364455123183, 436.6004058140606503 ) ;
#52 = APPROVAL_PERSON_ORGANIZATION ( #225, #216, #112 ) ;
#53 = DIRECTION ( 'NONE',  ( -0.0000000000000000000, -1.000000000000000000, -0.0000000000000000000 ) ) ;
#54 = ORIENTED_EDGE ( 'NONE', *, *, #171, .T. ) ;
#55 = ORIENTED_EDGE ( 'NONE', *, *, #42, .F. ) ;
#56 = AXIS2_PLACEMENT_3D ( 'NONE', #265, #53, #153 ) ;
#57 = DATE_AND_TIME ( #272, #179 ) ;
#58 = VERTEX_POINT ( 'NONE', #298 ) ;
#59 = PERSON_AND_ORGANIZATION_ROLE ( 'creator' ) ;
#60 = ORIENTED_EDGE ( 'NONE', *, *, #261, .F. ) ;
#61 = PERSON_AND_ORGANIZATION_ROLE ( 'creator' ) ;
#62 = CARTESIAN_POINT ( 'NONE',  ( 0.0000000000000000000, 0.0000000000000000000, -112.4999999999999858 ) ) ;
#63 = AXIS2_PLACEMENT_3D ( 'NONE', #285, #73, #178 ) ;
#64 = EDGE_CURVE ( 'NONE', #188, #84, #172, .T. ) ;
#65 = CARTESIAN_POINT ( 'NONE',  ( 0.0000000000000000000, 0.0000000000000000000, -112.5000000000000142 ) ) ;
#66 = DIRECTION ( 'NONE',  ( -0.0000000000000000000, -1.000000000000000000, -0.0000000000000000000 ) ) ;
#67 = DIRECTION ( 'NONE',  ( -0.0000000000000000000, -1.000000000000000000, -0.0000000000000000000 ) ) ;
#68 = CIRCLE ( 'NONE', #56, 99.09999999999995168 ) ;
#69 = APPROVAL ( #9, 'BELÝRTÝLMEMÝÞ' ) ;
#70 = DIRECTION ( 'NONE',  ( 0.0000000000000000000, -1.000000000000000000, -0.0000000000000000000 ) ) ;
#71 = CARTESIAN_POINT ( 'NONE',  ( 4.224565312956693755E-16, -305.9940363916821866, 3.449619364455123183 ) ) ;
#72 = ADVANCED_BREP_SHAPE_REPRESENTATION ( 'End Cap SDR17_001 115 0140 0225', ( #198, #5 ), #11 ) ;
#73 = DIRECTION ( 'NONE',  ( -0.0000000000000000000, -1.000000000000000000, -0.0000000000000000000 ) ) ;
#74 = VECTOR ( 'NONE', #2, 1000.000000000000000 ) ;
#75 = AXIS2_PLACEMENT_3D ( 'NONE', #49, #151, #242 ) ;
#76 = DIRECTION ( 'NONE',  ( -0.0000000000000000000, -1.000000000000000000, -0.0000000000000000000 ) ) ;
#77 = ORIENTED_EDGE ( 'NONE', *, *, #97, .T. ) ;
#78 = DIRECTION ( 'NONE',  ( 0.0000000000000000000, 0.0000000000000000000, 1.000000000000000000 ) ) ;
#79 = APPROVAL_ROLE ( '' ) ;
#80 = ORIENTED_EDGE ( 'NONE', *, *, #97, .F. ) ;
#81 = CIRCLE ( 'NONE', #75, 436.6004058140606503 ) ;
#82 = AXIS2_PLACEMENT_3D ( 'NONE', #71, #175, #263 ) ;
#83 = DATE_AND_TIME ( #293, #282 ) ;
#84 = VERTEX_POINT ( 'NONE', #65 ) ;
#85 = DATE_AND_TIME ( #295, #226 ) ;
#86 = VERTEX_POINT ( 'NONE', #166 ) ;
#87 = PERSON_AND_ORGANIZATION ( #135, #241 ) ;
#88 = CARTESIAN_POINT ( 'NONE',  ( 0.0000000000000000000, 0.0000000000000000000, 0.0000000000000000000 ) ) ;
#89 = CIRCLE ( 'NONE', #82, 436.6004058140606503 ) ;
#90 = AXIS2_PLACEMENT_3D ( 'NONE', #100, #201, #284 ) ;
#91 = ADVANCED_FACE ( 'NONE', ( #256 ), #43, .F. ) ;
#92 = FACE_OUTER_BOUND ( 'NONE', #205, .T. ) ;
#93 = CARTESIAN_POINT ( 'NONE',  ( 0.0000000000000000000, -305.9940363916821866, 0.0000000000000000000 ) ) ;
#94 = AXIS2_PLACEMENT_3D ( 'NONE', #124, #218, #307 ) ;
#95 = CIRCLE ( 'NONE', #90, 112.4999999999999716 ) ;
#96 = CC_DESIGN_APPROVAL ( #216, ( #199 ) ) ;
#97 = EDGE_CURVE ( 'NONE', #58, #227, #165, .T. ) ;
#98 = FACE_BOUND ( 'NONE', #108, .T. ) ;
#99 = VECTOR ( 'NONE', #148, 1000.000000000000000 ) ;
#100 = CARTESIAN_POINT ( 'NONE',  ( 0.0000000000000000000, 130.5927413321087442, 0.0000000000000000000 ) ) ;
#101 = FACE_OUTER_BOUND ( 'NONE', #37, .T. ) ;
#102 = ADVANCED_FACE ( 'NONE', ( #92 ), #196, .F. ) ;
#103 = DIRECTION ( 'NONE',  ( -0.0000000000000000000, -1.000000000000000000, -0.0000000000000000000 ) ) ;
#104 = ORIENTED_EDGE ( 'NONE', *, *, #287, .T. ) ;
#105 = CC_DESIGN_PERSON_AND_ORGANIZATION_ASSIGNMENT ( #162, #254, ( #199 ) ) ;
#106 = ORIENTED_EDGE ( 'NONE', *, *, #239, .F. ) ;
#107 = APPROVAL_ROLE ( '' ) ;
#108 = EDGE_LOOP ( 'NONE', ( #159, #246 ) ) ;
#109 = AXIS2_PLACEMENT_3D ( 'NONE', #283, #70, #174 ) ;
#110 = APPROVAL ( #291, 'BELÝRTÝLMEMÝÞ' ) ;
#111 = APPROVAL_PERSON_ORGANIZATION ( #223, #69, #107 ) ;
#112 = APPROVAL_ROLE ( '' ) ;
#113 = EDGE_LOOP ( 'NONE', ( #182, #60, #296, #136 ) ) ;
#114 = CALENDAR_DATE ( 2019, 16, 12 ) ;
#115 = DIRECTION ( 'NONE',  ( -1.000000000000000000, 0.0000000000000000000, 0.0000000000000000000 ) ) ;
#116 = CARTESIAN_POINT ( 'NONE',  ( 4.224565312956693755E-16, -305.9940363916821866, 3.449619364455123183 ) ) ;
#117 = AXIS2_PLACEMENT_3D ( 'NONE', #237, #24, #122 ) ;
#118 = DIRECTION ( 'NONE',  ( 0.0000000000000000000, 0.0000000000000000000, -1.000000000000000000 ) ) ;
#119 = DIRECTION ( 'NONE',  ( -0.0000000000000000000, -1.000000000000000000, -0.0000000000000000000 ) ) ;
#120 = CIRCLE ( 'NONE', #117, 112.5000000000000142 ) ;
#121 = ADVANCED_FACE ( 'NONE', ( #257 ), #23, .F. ) ;
#122 = DIRECTION ( 'NONE',  ( 0.0000000000000000000, 0.0000000000000000000, -1.000000000000000000 ) ) ;
#123 = AXIS2_PLACEMENT_3D ( 'NONE', #22, #119, #214 ) ;
#124 = CARTESIAN_POINT ( 'NONE',  ( 0.0000000000000000000, 0.0000000000000000000, 0.0000000000000000000 ) ) ;
#125 = CIRCLE ( 'NONE', #123, 99.09999999999995168 ) ;
#126 = LINE ( 'NONE', #219, #74 ) ;
#127 = DIRECTION ( 'NONE',  ( 0.0000000000000000000, 0.0000000000000000000, -1.000000000000000000 ) ) ;
#128 = CIRCLE ( 'NONE', #20, 99.10000000000000853 ) ;
#129 = PRODUCT_DEFINITION ( 'BÝLÝNMEYEN', '', #199, #299 ) ;
#130 = ORIENTED_EDGE ( 'NONE', *, *, #189, .F. ) ;
#131 = ORIENTED_EDGE ( 'NONE', *, *, #239, .T. ) ;
#132 = APPLICATION_PROTOCOL_DEFINITION ( 'international standard', 'config_control_design', 1994, #258 ) ;
#133 = EDGE_LOOP ( 'NONE', ( #204, #104, #7, #221 ) ) ;
#134 = DATE_TIME_ROLE ( 'creation_date' ) ;
#135 = PERSON ( 'BELÝRTÝLMEMÝÞ', 'BELÝRTÝLMEMÝÞ', 'BELÝRTÝLMEMÝÞ', ('BELÝRTÝLMEMÝÞ'), ('BELÝRTÝLMEMÝÞ'), ('BELÝRTÝLMEMÝÞ') ) ;
#136 = ORIENTED_EDGE ( 'NONE', *, *, #180, .T. ) ;
#137 = AXIS2_PLACEMENT_3D ( 'NONE', #302, #67, #169 ) ;
#138 = LOCAL_TIME ( 14, 43, 31.00000000000000000, #15 ) ;
#139 = PERSON_AND_ORGANIZATION ( #135, #241 ) ;
#140 = DIRECTION ( 'NONE',  ( 0.0000000000000000000, 0.0000000000000000000, -1.000000000000000000 ) ) ;
#141 = PRODUCT_DEFINITION_SHAPE ( 'NONE', 'NONE',  #129 ) ;
#142 = CARTESIAN_POINT ( 'NONE',  ( 0.0000000000000000000, 0.0000000000000000000, 0.0000000000000000000 ) ) ;
#143 = FACE_OUTER_BOUND ( 'NONE', #273, .T. ) ;
#144 = CIRCLE ( 'NONE', #137, 99.10000000000000853 ) ;
#145 = DIRECTION ( 'NONE',  ( 0.0000000000000000000, 0.0000000000000000000, -1.000000000000000000 ) ) ;
#146 = AXIS2_PLACEMENT_3D ( 'NONE', #93, #197, #281 ) ;
#147 = TOROIDAL_SURFACE ( 'NONE', #146, 3.449619364455123183, 450.0000000000000568 ) ;
#148 = DIRECTION ( 'NONE',  ( -0.0000000000000000000, -1.000000000000000000, -0.0000000000000000000 ) ) ;
#149 = AXIS2_PLACEMENT_3D ( 'NONE', #234, #21, #118 ) ;
#150 = AXIS2_PLACEMENT_3D ( 'NONE', #280, #66, #168 ) ;
#151 = DIRECTION ( 'NONE',  ( -1.000000000000000000, 0.0000000000000000000, 0.0000000000000000000 ) ) ;
#152 = CC_DESIGN_APPROVAL ( #69, ( #129 ) ) ;
#153 = DIRECTION ( 'NONE',  ( 0.0000000000000000000, 0.0000000000000000000, -1.000000000000000000 ) ) ;
#154 = ADVANCED_FACE ( 'NONE', ( #143 ), #147, .T. ) ;
#155 = ORIENTED_EDGE ( 'NONE', *, *, #4, .F. ) ;
#156 = AXIS2_PLACEMENT_3D ( 'NONE', #116, #213, #300 ) ;
#157 = EDGE_LOOP ( 'NONE', ( #55, #77, #289 ) ) ;
#158 = APPROVAL_DATE_TIME ( #57, #110 ) ;
#159 = ORIENTED_EDGE ( 'NONE', *, *, #180, .F. ) ;
#160 = COORDINATED_UNIVERSAL_TIME_OFFSET ( 3, 0, .AHEAD. ) ;
#161 = ORIENTED_EDGE ( 'NONE', *, *, #1, .T. ) ;
#162 = PERSON_AND_ORGANIZATION ( #135, #241 ) ;
#163 = AXIS2_PLACEMENT_3D ( 'NONE', #142, #232, #18 ) ;
#164 = DIRECTION ( 'NONE',  ( -0.0000000000000000000, -1.000000000000000000, -0.0000000000000000000 ) ) ;
#165 = CIRCLE ( 'NONE', #156, 450.0000000000000568 ) ;
#166 = CARTESIAN_POINT ( 'NONE',  ( 0.0000000000000000000, 120.0000000000000000, -99.09999999999995168 ) ) ;
#167 = CC_DESIGN_PERSON_AND_ORGANIZATION_ASSIGNMENT ( #276, #61, ( #199 ) ) ;
#168 = DIRECTION ( 'NONE',  ( 0.0000000000000000000, 0.0000000000000000000, -1.000000000000000000 ) ) ;
#169 = DIRECTION ( 'NONE',  ( 0.0000000000000000000, 0.0000000000000000000, -1.000000000000000000 ) ) ;
#170 = AXIS2_PLACEMENT_3D ( 'NONE', #88, #193, #279 ) ;
#171 = EDGE_CURVE ( 'NONE', #247, #292, #144, .T. ) ;
#172 = CIRCLE ( 'NONE', #170, 112.5000000000000142 ) ;
#173 = AXIS2_PLACEMENT_3D ( 'NONE', #17, #115, #211 ) ;
#174 = DIRECTION ( 'NONE',  ( 0.0000000000000000000, 0.0000000000000000000, -1.000000000000000000 ) ) ;
#175 = DIRECTION ( 'NONE',  ( 1.000000000000000000, 0.0000000000000000000, -1.224646799147353207E-16 ) ) ;
#176 = CIRCLE ( 'NONE', #173, 450.0000000000000568 ) ;
#177 = AXIS2_PLACEMENT_3D ( 'NONE', #255, #41, #140 ) ;
#178 = DIRECTION ( 'NONE',  ( 0.0000000000000000000, 0.0000000000000000000, -1.000000000000000000 ) ) ;
#179 = LOCAL_TIME ( 14, 43, 31.00000000000000000, #187 ) ;
#180 = EDGE_CURVE ( 'NONE', #292, #247, #128, .T. ) ;
#181 = CARTESIAN_POINT ( 'NONE',  ( 0.0000000000000000000, 0.0000000000000000000, -99.10000000000000853 ) ) ;
#182 = ORIENTED_EDGE ( 'NONE', *, *, #248, .F. ) ;
#183 = ORIENTED_EDGE ( 'NONE', *, *, #64, .F. ) ;
#184 = DIRECTION ( 'NONE',  ( 1.000000000000000000, 0.0000000000000000000, 0.0000000000000000000 ) ) ;
#185 = VECTOR ( 'NONE', #164, 1000.000000000000000 ) ;
#186 = CLOSED_SHELL ( 'NONE', ( #121, #305, #233, #102, #91, #229, #260, #154, #278 ) ) ;
#187 = COORDINATED_UNIVERSAL_TIME_OFFSET ( 3, 0, .AHEAD. ) ;
#188 = VERTEX_POINT ( 'NONE', #235 ) ;
#189 = EDGE_CURVE ( 'NONE', #207, #86, #125, .T. ) ;
#190 = APPROVAL_DATE_TIME ( #83, #69 ) ;
#191 = ORIENTED_EDGE ( 'NONE', *, *, #212, .T. ) ;
#192 = APPROVAL_DATE_TIME ( #85, #216 ) ;
#193 = DIRECTION ( 'NONE',  ( -0.0000000000000000000, -1.000000000000000000, -0.0000000000000000000 ) ) ;
#194 = UNCERTAINTY_MEASURE_WITH_UNIT (LENGTH_MEASURE( 1.000000000000000082E-05 ), #6, 'distance_accuracy_value', 'NONE');
#195 = CC_DESIGN_PERSON_AND_ORGANIZATION_ASSIGNMENT ( #249, #34, ( #16 ) ) ;
#196 = CYLINDRICAL_SURFACE ( 'NONE', #150, 99.09999999999998010 ) ;
#197 = DIRECTION ( 'NONE',  ( -0.0000000000000000000, -1.000000000000000000, -0.0000000000000000000 ) ) ;
#198 = MANIFOLD_SOLID_BREP ( 'Döndür1', #186 ) ;
#199 = PRODUCT_DEFINITION_FORMATION_WITH_SPECIFIED_SOURCE ( 'HERHANGÝ', '', #16, .NOT_KNOWN. ) ;
#200 = PLANE ( 'NONE',  #109 ) ;
#201 = DIRECTION ( 'NONE',  ( -0.0000000000000000000, -1.000000000000000000, -0.0000000000000000000 ) ) ;
#202 = CYLINDRICAL_SURFACE ( 'NONE', #63, 112.4999999999999858 ) ;
#203 = DIRECTION ( 'NONE',  ( 0.0000000000000000000, 0.0000000000000000000, -1.000000000000000000 ) ) ;
#204 = ORIENTED_EDGE ( 'NONE', *, *, #236, .T. ) ;
#205 = EDGE_LOOP ( 'NONE', ( #130, #30, #54, #267 ) ) ;
#206 = COORDINATED_UNIVERSAL_TIME_OFFSET ( 3, 0, .AHEAD. ) ;
#207 = VERTEX_POINT ( 'NONE', #303 ) ;
#208 = COORDINATED_UNIVERSAL_TIME_OFFSET ( 3, 0, .AHEAD. ) ;
#209 = EDGE_LOOP ( 'NONE', ( #222, #131, #33 ) ) ;
#210 = DATE_AND_TIME ( #114, #138 ) ;
#211 = DIRECTION ( 'NONE',  ( 0.0000000000000000000, 0.0000000000000000000, 1.000000000000000000 ) ) ;
#212 = EDGE_CURVE ( 'NONE', #84, #188, #120, .T. ) ;
#213 = DIRECTION ( 'NONE',  ( 1.000000000000000000, 0.0000000000000000000, -1.224646799147353207E-16 ) ) ;
#214 = DIRECTION ( 'NONE',  ( 0.0000000000000000000, 0.0000000000000000000, -1.000000000000000000 ) ) ;
#215 = CC_DESIGN_SECURITY_CLASSIFICATION ( #264, ( #199 ) ) ;
#216 = APPROVAL ( #13, 'BELÝRTÝLMEMÝÞ' ) ;
#217 = CARTESIAN_POINT ( 'NONE',  ( 1.377727649040772152E-14, 130.5927413321087442, 112.4999999999999716 ) ) ;
#218 = DIRECTION ( 'NONE',  ( -0.0000000000000000000, -1.000000000000000000, -0.0000000000000000000 ) ) ;
#219 = CARTESIAN_POINT ( 'NONE',  ( 1.213624977955026801E-14, 0.0000000000000000000, 99.09999999999998010 ) ) ;
#220 = LINE ( 'NONE', #286, #44 ) ;
#221 = ORIENTED_EDGE ( 'NONE', *, *, #1, .F. ) ;
#222 = ORIENTED_EDGE ( 'NONE', *, *, #244, .F. ) ;
#223 = PERSON_AND_ORGANIZATION ( #135, #241 ) ;
#224 = EDGE_LOOP ( 'NONE', ( #106, #294, #14 ) ) ;
#225 = PERSON_AND_ORGANIZATION ( #135, #241 ) ;
#226 = LOCAL_TIME ( 14, 43, 31.00000000000000000, #208 ) ;
#227 = VERTEX_POINT ( 'NONE', #217 ) ;
#228 = PERSON_AND_ORGANIZATION_ROLE ( 'classification_officer' ) ;
#229 = ADVANCED_FACE ( 'NONE', ( #306, #98 ), #200, .T. ) ;
#230 = CARTESIAN_POINT ( 'NONE',  ( 0.0000000000000000000, 130.5927413321087442, -112.4999999999999716 ) ) ;
#231 = EDGE_CURVE ( 'NONE', #86, #292, #262, .T. ) ;
#232 = DIRECTION ( 'NONE',  ( -0.0000000000000000000, -1.000000000000000000, -0.0000000000000000000 ) ) ;
#233 = ADVANCED_FACE ( 'NONE', ( #240 ), #25, .T. ) ;
#234 = CARTESIAN_POINT ( 'NONE',  ( 0.0000000000000000000, -305.9940363916821866, 0.0000000000000000000 ) ) ;
#235 = CARTESIAN_POINT ( 'NONE',  ( 1.377727649040772468E-14, 0.0000000000000000000, 112.5000000000000142 ) ) ;
#236 = EDGE_CURVE ( 'NONE', #8, #227, #95, .T. ) ;
#237 = CARTESIAN_POINT ( 'NONE',  ( 0.0000000000000000000, 0.0000000000000000000, 0.0000000000000000000 ) ) ;
#238 = APPLICATION_CONTEXT ( 'configuration controlled 3d designs of mechanical parts and assemblies' ) ;
#239 = EDGE_CURVE ( 'NONE', #270, #207, #89, .T. ) ;
#240 = FACE_OUTER_BOUND ( 'NONE', #133, .T. ) ;
#241 = ORGANIZATION ( 'BELÝRTÝLMEMÝÞ', 'BELÝRTÝLMEMÝÞ', '' ) ;
#242 = DIRECTION ( 'NONE',  ( 0.0000000000000000000, 0.0000000000000000000, 1.000000000000000000 ) ) ;
#243 = CARTESIAN_POINT ( 'NONE',  ( -2.820494819939319995E-14, 130.5927413321087442, 0.0000000000000000000 ) ) ;
#244 = EDGE_CURVE ( 'NONE', #270, #86, #81, .T. ) ;
#245 = CARTESIAN_POINT ( 'NONE',  ( 0.0000000000000000000, -305.9940363916821866, 0.0000000000000000000 ) ) ;
#246 = ORIENTED_EDGE ( 'NONE', *, *, #171, .F. ) ;
#247 = VERTEX_POINT ( 'NONE', #27 ) ;
#248 = EDGE_CURVE ( 'NONE', #207, #247, #126, .T. ) ;
#249 = PERSON_AND_ORGANIZATION ( #135, #241 ) ;
#250 = SHAPE_DEFINITION_REPRESENTATION ( #141, #72 ) ;
#251 = ORIENTED_EDGE ( 'NONE', *, *, #287, .F. ) ;
#252 = CALENDAR_DATE ( 2019, 16, 12 ) ;
#253 = EDGE_LOOP ( 'NONE', ( #191, #10 ) ) ;
#254 = PERSON_AND_ORGANIZATION_ROLE ( 'design_supplier' ) ;
#255 = CARTESIAN_POINT ( 'NONE',  ( 0.0000000000000000000, 130.5927413321087442, 0.0000000000000000000 ) ) ;
#256 = FACE_OUTER_BOUND ( 'NONE', #113, .T. ) ;
#257 = FACE_OUTER_BOUND ( 'NONE', #209, .T. ) ;
#258 = APPLICATION_CONTEXT ( 'configuration controlled 3d designs of mechanical parts and assemblies' ) ;
#259 = CARTESIAN_POINT ( 'NONE',  ( 0.0000000000000000000, 0.0000000000000000000, 0.0000000000000000000 ) ) ;
#260 = ADVANCED_FACE ( 'NONE', ( #101 ), #202, .T. ) ;
#261 = EDGE_CURVE ( 'NONE', #86, #207, #68, .T. ) ;
#262 = LINE ( 'NONE', #48, #99 ) ;
#263 = DIRECTION ( 'NONE',  ( -1.224646799147353207E-16, 0.0000000000000000000, -1.000000000000000000 ) ) ;
#264 = SECURITY_CLASSIFICATION ( '', '', #40 ) ;
#265 = CARTESIAN_POINT ( 'NONE',  ( 0.0000000000000000000, 120.0000000000000000, 0.0000000000000000000 ) ) ;
#266 = FACE_OUTER_BOUND ( 'NONE', #157, .T. ) ;
#267 = ORIENTED_EDGE ( 'NONE', *, *, #231, .F. ) ;
#268 =( NAMED_UNIT ( * ) SI_UNIT ( $, .STERADIAN. ) SOLID_ANGLE_UNIT ( ) );
#269 = CC_DESIGN_DATE_AND_TIME_ASSIGNMENT ( #36, #134, ( #129 ) ) ;
#270 = VERTEX_POINT ( 'NONE', #243 ) ;
#271 = MECHANICAL_CONTEXT ( 'NONE', #238, 'mechanical' ) ;
#272 = CALENDAR_DATE ( 2019, 16, 12 ) ;
#273 = EDGE_LOOP ( 'NONE', ( #80, #275, #155 ) ) ;
#274 = PERSON_AND_ORGANIZATION ( #135, #241 ) ;
#275 = ORIENTED_EDGE ( 'NONE', *, *, #42, .T. ) ;
#276 = PERSON_AND_ORGANIZATION ( #135, #241 ) ;
#277 = LINE ( 'NONE', #62, #185 ) ;
#278 = ADVANCED_FACE ( 'NONE', ( #28 ), #51, .F. ) ;
#279 = DIRECTION ( 'NONE',  ( 0.0000000000000000000, 0.0000000000000000000, -1.000000000000000000 ) ) ;
#280 = CARTESIAN_POINT ( 'NONE',  ( 0.0000000000000000000, 0.0000000000000000000, 0.0000000000000000000 ) ) ;
#281 = DIRECTION ( 'NONE',  ( 0.0000000000000000000, 0.0000000000000000000, -1.000000000000000000 ) ) ;
#282 = LOCAL_TIME ( 14, 43, 31.00000000000000000, #206 ) ;
#283 = CARTESIAN_POINT ( 'NONE',  ( 99.10000000000000853, 0.0000000000000000000, 0.0000000000000000000 ) ) ;
#284 = DIRECTION ( 'NONE',  ( 0.0000000000000000000, 0.0000000000000000000, -1.000000000000000000 ) ) ;
#285 = CARTESIAN_POINT ( 'NONE',  ( 0.0000000000000000000, 0.0000000000000000000, 0.0000000000000000000 ) ) ;
#286 = CARTESIAN_POINT ( 'NONE',  ( 1.377727649040772310E-14, 0.0000000000000000000, 112.4999999999999858 ) ) ;
#287 = EDGE_CURVE ( 'NONE', #227, #188, #220, .T. ) ;
#288 =( NAMED_UNIT ( * ) PLANE_ANGLE_UNIT ( ) SI_UNIT ( $, .RADIAN. ) );
#289 = ORIENTED_EDGE ( 'NONE', *, *, #236, .F. ) ;
#290 = CARTESIAN_POINT ( 'NONE',  ( 0.0000000000000000000, 0.0000000000000000000, 0.0000000000000000000 ) ) ;
#291 = APPROVAL_STATUS ( 'not_yet_approved' ) ;
#292 = VERTEX_POINT ( 'NONE', #181 ) ;
#293 = CALENDAR_DATE ( 2019, 16, 12 ) ;
#294 = ORIENTED_EDGE ( 'NONE', *, *, #244, .T. ) ;
#295 = CALENDAR_DATE ( 2019, 16, 12 ) ;
#296 = ORIENTED_EDGE ( 'NONE', *, *, #231, .T. ) ;
#297 = DATE_TIME_ROLE ( 'classification_date' ) ;
#298 = CARTESIAN_POINT ( 'NONE',  ( -6.418476861114186249E-14, 143.9927413321087215, 0.0000000000000000000 ) ) ;
#299 = DESIGN_CONTEXT ( 'detailed design', #258, 'design' ) ;
#300 = DIRECTION ( 'NONE',  ( -1.224646799147353207E-16, 0.0000000000000000000, -1.000000000000000000 ) ) ;
#301 = CC_DESIGN_DATE_AND_TIME_ASSIGNMENT ( #210, #297, ( #264 ) ) ;
#302 = CARTESIAN_POINT ( 'NONE',  ( 0.0000000000000000000, 0.0000000000000000000, 0.0000000000000000000 ) ) ;
#303 = CARTESIAN_POINT ( 'NONE',  ( 1.213624977955026643E-14, 120.0000000000000000, 99.09999999999995168 ) ) ;
#304 = APPROVAL_PERSON_ORGANIZATION ( #87, #110, #79 ) ;
#305 = ADVANCED_FACE ( 'NONE', ( #266 ), #38, .T. ) ;
#306 = FACE_OUTER_BOUND ( 'NONE', #253, .T. ) ;
#307 = DIRECTION ( 'NONE',  ( 0.0000000000000000000, 0.0000000000000000000, -1.000000000000000000 ) ) ;
ENDSEC;
END-ISO-10303-21;
